Number 1 -lead

(/) Slide Up  (\) Slide Down  (h) Hammer On  (p) Pull Off  (b) Bend (r) Release (v) Vibrato
E|--------------------------------------------------------------------
B|--------8--10--10------8--10--10--10--8--10--10b11--8/10\8----------
G|------------------------------------------------------------10--10--
D|--------------------------------------------------------------------
A|--------------------------------------------------------------------
E|--------------------------------------------------------------------



E|--------------------------------------------------------------------------------------
B|-----6-----6-----6-----6-----6-----6------11------11------11------11------11------11--
G|--5-----5-----5-----5-----5-----5-----10------10------10------10------10------10------
D|--------------------------------------------------------------------------------------
A|--------------------------------------------------------------------------------------
E|--------------------------------------------------------------------------------------



E|-------------------------------------------------------------------------
B|--5h6--6--6--5h6--6--6--5h6--6--6--6--6--6/10--10--10--10--8--10--8------
G|---------------------------------------------------------------------10--
D|-------------------------------------------------------------------------
A|-------------------------------------------------------------------------
E|-------------------------------------------------------------------------
http://www.guitartabcreator.com
Guitar Tab Creator is intended to store guitar tab created through the tool. It currently does not support in-line text editing. Any text you place in here will be lost. If you need to comment on your tab, please use the "Tab Notes" section located below.