I want to

(/) Slide Up  (\) Slide Down  (h) Hammer On  (p) Pull Off  (b) Bend (r) Release (v) Vibrato


E|-----------
B|--2--------
G|--2--5--7--
D|--2--5--7--
A|--0--3--5--
E|-----------



E|-------------------------------------------------------------------------------------
B|--2----------------------------------------------------------------------------------
G|--2--5--7--9------11--12--11--9----------11--12--11--9----------11--12--11--9--------
D|--2--5--7--9------11--12--11--9----------11--12--11--9----------11--12--11--9--------
A|--0--3--5--7------9---10--9---7----------9---10--9---7----------9---10--9---7--------
E|-------------------------------------------------------------------------------------



E|------------------------------------------------------------------
B|------------------------------------------------------------------
G|--11--12--11--7----------9----7--------9----7--------9----7----9--
D|--11--12--11--7----------9----7--------9----7--------9----7----9--
A|--9---10--9---5----------7----5--------7----5--------7----5----7--
E|------------------------------------------------------------------

http://www.guitartabcreator.com
Guitar Tab Creator is intended to store guitar tab created through the tool. It currently does not support in-line text editing. Any text you place in here will be lost. If you need to comment on your tab, please use the "Tab Notes" section located below.