Hey Arnold's Theme

(/) Slide Up  (\) Slide Down  (h) Hammer On  (p) Pull Off  (b) Bend (r) Release (v) Vibrato


E|-------------10p8--------------------------------------------------------
B|--10--8--10--------10p8--10------8---------------------------------------
G|-----------------------------10-----7--------7--9-----9------8-----8-----
D|---------------------------------------------------9------------8--------
A|-------------------------------------------------------------------------
E|-------------------------------------------------------------------------



E|-----------------------------------------------
B|---------10------------------8-------6p5-------
G|--9p7h9------9--------7p5h7-----7---------6h7--
D|-----------------------------------------------
A|-----------------------------------------------
E|-----------------------------------------------



E|------------13------------------------------------------------------------------------
B|--6--8----------14\13------6--8--6--5------6--8------13b15b13--11-----------------11--
G|--------10---------------------------------------------------------10--9--------------
D|--------------------------------------------------------------------------10--12------
A|--------------------------------------------------------------------------------------
E|--------------------------------------------------------------------------------------



E|------------------------------------------------
B|--6--8--------------6--8--6--5--------6--8------
G|------------------------------------------------
D|------------------------------------------------
A|------------------------------------------------
E|------------------------------------------------
http://www.guitartabcreator.com
Guitar Tab Creator is intended to store guitar tab created through the tool. It currently does not support in-line text editing. Any text you place in here will be lost. If you need to comment on your tab, please use the "Tab Notes" section located below.