pan de vida d

(/) Slide Up  (\) Slide Down  (h) Hammer On  (p) Pull Off  (b) Bend (r) Release (v) Vibrato


E|--------------------------------------------------------------------------
B|-----7---7-7--------------7--10--8-7------8-8-8-8-8-7--------7-8---7------
G|-7-9----------9-7-----7-9------------9----------------9----9----------9-7-
D|--------------------------------------------------------------------------
A|--------------------------------------------------------------------------
E|--------------------------------------------------------------------------



E|--------------------------------------------------------------------------
B|-12---10-10-8----8-10-12---12-10---8-7----7---7-10---8-7--------7-8-7-----
G|--------------------------------------------9------------9----9-------9-7-
D|--------------------------------------------------------------------------
A|--------------------------------------------------------------------------
E|--------------------------------------------------------------------------
http://www.guitartabcreator.com
Guitar Tab Creator is intended to store guitar tab created through the tool. It currently does not support in-line text editing. Any text you place in here will be lost. If you need to comment on your tab, please use the "Tab Notes" section located below.