Entre tus manos

(/) Slide Up  (\) Slide Down  (h) Hammer On  (p) Pull Off  (b) Bend (r) Release (v) Vibrato


E|--------------------------------------------------------
B|-----7---------7-8-7---------7-10-7-------7-------------
G|-7-7---9-9---9-------7--------------9-9-----9-7-9/11-11-
D|-----------------------9-7------------------------------
A|--------------------------------------------------------
E|--------------------------------------------------------



E|-------------------------------------------------------
B|-7-8-10-12---12-10-8-10--------7-------7---------------
G|---------------------------7-7---9-9-----9-7-9-7-------
D|-------------------------------------------------------
A|-------------------------------------------------------
E|-------------------------------------------------------
http://www.guitartabcreator.com
Guitar Tab Creator is intended to store guitar tab created through the tool. It currently does not support in-line text editing. Any text you place in here will be lost. If you need to comment on your tab, please use the "Tab Notes" section located below.