Every Summer Night Theme 2

(/) Slide Up  (\) Slide Down  (h) Hammer On  (p) Pull Off  (b) Bend (r) Release (v) Vibrato


E|-------------------------------------------------------------0---
B|----1--3-----------0--3----5----7----/6/5/4/3--------0--3--------
G|-3---------------------------------------------------------------
D|-----------------------------------------------------------------
A|-----------------------------------------------------------------
E|-----------------------------------------------------------------



E|-2h3------------------1--0h1p0------------------------0----------
B|-----1--------0----------------3-----------------5/6-------------
G|-----------------2--------------------------0--------------------
D|-----------------------------------------------------------------
A|-----------------------------------------------------------------
E|-----------------------------------------------------------------



E|----0----2------4h5-------------5----4----2----2h3p2p0-----------
B|-2------------------3--------3-----------------------------------
G|-----------------------------------------------------------------
D|-----------------------------------------------------------------
A|-----------------------------------------------------------------
E|-----------------------------------------------------------------
http://www.guitartabcreator.com
Guitar Tab Creator is intended to store guitar tab created through the tool. It currently does not support in-line text editing. Any text you place in here will be lost. If you need to comment on your tab, please use the "Tab Notes" section located below.