Every Summer Night Solo

(/) Slide Up  (\) Slide Down  (h) Hammer On  (p) Pull Off  (b) Bend (r) Release (v) Vibrato
E|------------------------------------------------------------------------------------
B|----------------------------------------------------------------------------10/11---
G|----------------------------------------------------------------------10-12---------
D|---7-9-9h10p9-7------5----5-7--------------------------------------10---------------
A|-7-----------------7----7-----6/7------5----5-7--------------10-11------------------
E|-------------------------------------8----8------8--5-------------------------------



E|------------------------------------------------------------------------------------
B|------------------------------------------------------------------------------------
G|-12-10------------------------------------------------------------------------------
D|-------13-12-10---------------10--10------------------------------------------------
A|----------------11-10--11-13-----------------------10--10---------------------------
E|--------------------------------------13--11-11-13----------------------------------



E|-----------------------------------------------------------------11--10/11--8-------
B|-------------------------------------------------8-9--11--11-11---------------11----
G|----8--10h11p10-8---------------------------8-10------------------------------------
D|-8----------------10-8-----------------8-10-----------------------------------------
A|-----------------------10-8-------8-10----------------------------------------------
E|----------------------------11------------------------------------------------------



E|-----------11/13--11----11-11-10--13--10--------------------------------------------
B|-9-11-7/8--------------------------------10-------------------15-16---16-13---------
G|--------------------------------------------10----------12-15---------------15-12---
D|--------------------------------------------------12/13-----------------------------
A|------------------------------------------------------------------------------------
E|------------------------------------------------------------------------------------



E|----------------------------------------------------------------------------------
B|----------------------------------------------------------------------------------
G|-11/10/9/8-----8-10-8-------------------------------------------------------------
D|----------------------10-8----7/8---------7-8/9--7----------------------7-10-9----
A|---------------------------10--------7-10----------10-7-10-----------10-----------
E|------------------------------------------------------------------10--------------



E|---------8---------------------------------------------------------------------------
B|------10---11p10---------------------------------------------8-----------------------
G|-7-10------------10--------------------------------------7-8----9/10--8-7------------
D|--------------------12-10------------------10-------8-10------------------10-8-------
A|---------------------------13-12-10-11/12-----10-------------------------------11-10-
E|-------------------------------------------------------------------------------------



E|------------------------------------------------------------------8-8--10-10--11-11-
B|------------------------------------------------------8-8--11-11--------------------
G|-------------------------------------------------8-8--------------------------------
D|-------------8------------------------------8-8-------------------------------------
A|-8--9/10--11--------------------8-9/10--10------------------------------------------
E|----------------11-11--------11-----------------------------------------------------



E|-10/11-13--13-11-8/10-8-----------11--11/8-----------------------8--------10-8--8-13-
B|------------------------11----11-----------9------9-8--8-11-9--9---11--11------------
G|------------------------------------------------8------------------------------------
D|-------------------------------------------------------------------------------------
A|-------------------------------------------------------------------------------------
E|-------------------------------------------------------------------------------------



E|-11/12--8-10-------------------------------------------------------------9/10-11--11-
B|-------------10-8-----8--------------------------------------------11-13-------------
G|------------------10----9/10------------------------------------12-------------------
D|-----------------------------12-10-12------------------10-12-13----------------------
A|---------------------------------------------13--12/13-------------------------------
E|-------------------------------------------------------------------------------------



E|-10-------------10-13-10-13-14/15----------------------------------------------------
B|----11-------------------------------------------------------------------------------
G|-------12/10-------------------------------------------------------------------------
D|-------------------------------------------------------------------------------------
A|-------------------------------------------------------------------------------------
E|-------------------------------------------------------------------------------------
http://www.guitartabcreator.com
Guitar Tab Creator is intended to store guitar tab created through the tool. It currently does not support in-line text editing. Any text you place in here will be lost. If you need to comment on your tab, please use the "Tab Notes" section located below.