Every Summer Night Main Theme

(/) Slide Up  (\) Slide Down  (h) Hammer On  (p) Pull Off  (b) Bend (r) Release (v) Vibrato

E|-3--3--3----------6----5h6p5-----------------------------------
B|------------5-----------------8------/7/6/5--------------------
G|---------------5-----------------------------------------------
D|---------------------------------------------------------------
A|---------------------------------------------------------------
E|---------------------------------------------------------------



E|------------6--------------------------------------------------
B|----8--6---------8p6---------------4----7/8--------------------
G|-8-------------------8--5--------5----5------------------------
D|---------------------------------------------------------------
A|---------------------------------------------------------------
E|---------------------------------------------------------------



E|----7/8--6-----------6--------------------------8--------------
B|-8------------6-8-------9--p8--p6------------8-----------------
G|------------8--------------------------------------------------
D|---------------------------------------------------------------
A|---------------------------------------------------------------
E|---------------------------------------------------------------



E|-6---------5--6-8--5----/4/3/2/1-----------6p5-------------6---
B|------8---------------------------------6------8--------8------
G|---------------------------------------------------------------
D|---------------------------------------------------------------
A|---------------------------------------------------------------
E|---------------------------------------------------------------



E|--10--------11p8--------------------------------------------------------------------------------------------------------
B|------------------------------------------------------------------------------------------------------------------------
G|------------------------------------------------------------------------------------------------------------------------
D|------------------------------------------------------------------------------------------------------------------------
A|------------------------------------------------------------------------------------------------------------------------
E|------------------------------------------------------------------------------------------------------------------------



E|-----8--10----------------13--8h9p8p6--8-----------------------
B|-11------------------------------------------------------------
G|---------------------------------------------------------------
D|---------------------------------------------------------------
A|---------------------------------------------------------------
E|---------------------------------------------------------------
http://www.guitartabcreator.com
Guitar Tab Creator is intended to store guitar tab created through the tool. It currently does not support in-line text editing. Any text you place in here will be lost. If you need to comment on your tab, please use the "Tab Notes" section located below.