When You Walk In The Room (2)

(/) Slide Up  (\) Slide Down  (h) Hammer On  (p) Pull Off  (b) Bend (r) Release (v) Vibrato
E|-------|---------|-----------|-------|-------|-----------|-----------|-------|---
B|-------|-2-2-2-2-|-3-2-----3-|-3/2---|-------|-2-2-2-2-2-|-3-2-------|-------|---
G|---2-4-|---------|-------2---|-------|---2-4-|-----------|-------2-4-|-2/1---|---
D|-------|---------|-----------|-------|-------|-----------|-----------|-------|---
A|-------|---------|-----------|-------|-------|-----------|-----------|-------|---
E|-------|---------|-----------|-------|-------|-----------|-----------|-------|---



E|-------|-----------|-----------|-------|------|-----------|----|--------|------|-
B|---3-4-|-3-3-5-3-2-|-----5-5-5-|-2---2-|------|-3-2-3-2-2-|----|--2-2-2-|------|-
G|-------|-----------|-4---------|---4---|-4-2--|-----------|-4--|--------|-4/2--|-
D|-------|-----------|-----------|-------|------|-----------|----|--------|------|-
A|-------|-----------|-----------|-------|------|-----------|----|--------|------|-
E|-------|-----------|-----------|-------|------|-----------|----|--------|------|-



E|---------|---------------|-----------|-------|-------|---------|-----------|-------|-
B|---------|-2-2-2-2-2-2-2-|-3-2-----3-|-3/2---|-------|-2-2-2-2-|-3-2-------|-------|-
G|---2-2-4-|---------------|-------2---|-------|---2/4-|---------|-------2-4-|-2/1---|-
D|---------|---------------|-----------|-------|-------|---------|-----------|-------|-
A|---------|---------------|-----------|-------|-------|---------|-----------|-------|-
E|---------|---------------|-----------|-------|-------|---------|-----------|-------|-



E|---------|-----------|----------|-------|------|-----------|----|--------|------|-
B|---3-3-4-|-3-3-5/3-2-|------5-5-|-2---2-|------|-3-2-3-2-2-|----|--2-2-2-|------|-
G|---------|-----------|-4--------|---4---|-4-2--|-----------|-4--|--------|-4/2--|-
D|---------|-----------|----------|-------|------|-----------|----|--------|------|-
A|---------|-----------|----------|-------|------|-----------|----|--------|------|-
E|---------|-----------|----------|-------|------|-----------|----|--------|------|-



E|----------|----------|------------|-------|-------------|-----------|-----------|------------|-
B|--3-2-2-5-|-2--------|--3-2-3-2-2-|-2-----|-5-5-5-5-3-3-|-3-2-2-----|-----------|------------|-
G|----------|---4-4/6--|------------|---4-4-|-------------|-------4-2-|--6-4-6-4--|--6-4-6/4-6-|-
D|----------|----------|------------|-------|-------------|-----------|-----------|------------|-
A|----------|----------|------------|-------|-------------|-----------|-----------|------------|-
E|----------|----------|------------|-------|-------------|-----------|-----------|------------|-



E|---------|---------|-
B|---------|---5-5-3-|-
G|-6-4-6-4-|-6-------|-
D|---------|---------|-
A|---------|---------|-
E|---------|---------|-



E|---------|-----------|-------|-------|---------|-----------|-------|-----------|---
B|-2-2-2-2-|-3-2-----3-|-3/2---|-------|-2-2-2-2-|-3-2-------|-------|-3-3-5-3-2-|---
G|---------|-------2---|-------|---2/4-|---------|-------2-4-|-2/1---|-----------|---
D|---------|-----------|-------|-------|---------|-----------|-------|-----------|---
A|---------|-----------|-------|-------|---------|-----------|-------|-----------|---
E|---------|-----------|-------|-------|---------|-----------|-------|-----------|---



E|---------|-------|------|-----------|----|--------|------|-
B|-----5-5-|-2---2-|------|-3-2-3-2-2-|----|--2-2-2-|------|-
G|-4-------|---4---|-4-2--|-----------|-4--|--------|-4/2--|-
D|---------|-------|------|-----------|----|--------|------|-
A|---------|-------|------|-----------|----|--------|------|-
E|---------|-------|------|-----------|----|--------|------|-



E|-----------------|-------|-------------|---------|--
B|--3--2--3--2--2--|-------|----2--2--2--|---------|--
G|-----------------|--4----|-------------|--4/2----|--
D|-----------------|-------|-------------|---------|--
A|-----------------|-------|-------------|---------|--
E|-----------------|-------|-------------|---------|--
http://www.guitartabcreator.com
Guitar Tab Creator is intended to store guitar tab created through the tool. It currently does not support in-line text editing. Any text you place in here will be lost. If you need to comment on your tab, please use the "Tab Notes" section located below.