Wake Up - Coheed and Cambria (Acoustic Live)

(h) Hammer On  (p) Pull Off



CAPO 5TH FRET DURING LIVE PERFORMANCE [**TABBED BY DEREK BRENNECKE**]



*****TUNING IS A HALF STEP DOWN (D#G#C#F#A#D#)(Or if you prefer it like this: EbAbDbGbBbEb)*****




VERSE
E|--------------------------------------------------------------------------------------------|
B|----3---------3-----------------------------------------------------------------------------|
G|-----0---------0----------------0--2----0-2p0-----------------------------------------------|
D|------0---------0--------------0-----0------------------------------------------------------|
A|-3-----3----3-----3-----------2-------------------------------------------------------------|
E|-------------------------2h3-------2--------------------------------------------------------|

CHORUS (Beginning riff is up for interpretation)
E|--------------------------------------------------------------------------------------------|
B|-------------3-----------------3----3----3----1h0------1-----1----1h0------1---1----1--1h0--|
G|----------0---0----3-----------0----0----0---0---------2-----2----2--------0---0----0-------|
D|--------0-----------------------------------------------------------------------------------|
A|------2-----2-----2----------3-----3----3-------------0----0-----0--------3----3----3-------|
E|--2h3---------------------------------------------------------------------------------------|
Guitar Tab Creator is intended to store guitar tab created through the tool. It currently does not support in-line text editing. Any text you place in here will be lost. If you need to comment on your tab, please use the "Tab Notes" section located below.