Soil to the Sun Guitar 2

(/) Slide Up  (\) Slide Down  (h) Hammer On  (p) Pull Off  (b) Bend (r) Release (v) Vibrato
E|----------------------
B|----------------------
G|----------------------
D|--7----7--7--7--7--5--
A|--5----5--5--5--5--3--
E|----------------------



E|-----------------------------------------------------------------------
B|-----------------------------------------------------------------------
G|-----------------------------------------------------------------------
D|--5--------------5--------------5----------------7----7--7--5----5--5--
A|--3--------------3--------------3----------------5----5--5--3----3--3--
E|-----5--3--5--5-----5--3--5--5-----5--3--5--5--------------------------



E|-----------------------------2-------------
B|--2--2--2--2--2--2--2--2--1--3----3--3--3--
G|--2--2--2--2--2--2--2--2--0--2----2--2--2--
D|--2--2--2--2--2--2--2--2--2--0----0--0--0--
A|--0--0--0--0--0--0--0--0--3--0----0--0--0--
E|-------------------------------------------



E|--------------------------------------------
B|--------------------------------------------
G|--------------------------------------------
D|--5--7----5--7----5--7----10----10--10------
A|--5--7----5--7----5--7----10----10--10------
E|--3--5----3--5----3--5----8-----8---8-------



E|--10b--10b--10b--10b--10b--10b--10b--10b--10b--10b--10b--10b--10b--10b----------
B|------------------------------------------------------------------------10------
G|--------------------------------------------------------------------------------
D|--------------------------------------------------------------------------------
A|----------------------------------------------------------------------------12--
E|--------------------------------------------------------------------------------



E|-------------------------------------------------------
B|---------------------------------------------------11--
G|----------9--10--9--10--9------------9--10--9--10------
D|--10--12---------------------10--12--------------------
A|-------------------------------------------------------
E|-------------------------------------------------------



E|-----------------------------------------------------
B|-----------------------------10----------------------
G|----------9--10--9--10--9--------12--10--12--10--10--
D|--10--12---------------------------------------------
A|-----------------------------------------------------
E|-----------------------------------------------------



E|--------------------------------------------
B|--------------------------------------------
G|--6------------6------------6------------6--
D|--7------------7------------7------------7--
A|--7------------7------------7------------7--
E|--5------------5------------5------------5--



E|--
B|--
G|--
D|--
A|--
E|--
http://www.guitartabcreator.com
Guitar Tab Creator is intended to store guitar tab created through the tool. It currently does not support in-line text editing. Any text you place in here will be lost. If you need to comment on your tab, please use the "Tab Notes" section located below.