Exercise - for hand strength and alternate picking

(/) Slide Up  (\) Slide Down  (h) Hammer On  (p) Pull Off  (b) Bend (r) Release (v) Vibrato


E|--------------------------------5--6----|----------------------------------5--7--
B|--------------------------5--6----------|----------------------------5--7--------
G|--------------------5--6----------------|----------------------5--7--------------
D|--------------5--6----------------------|----------------5--7--------------------
A|--------5--6----------------------------|----------5--7--------------------------
E|--5--6----------------------------------|----5--7--------------------------------



E|--------------------------------5--8----|--
B|--------------------------5--8----------|--
G|--------------------5--8----------------|--
D|--------------5--8----------------------|--
A|--------5--8----------------------------|--
E|--5--8----------------------------------|--
http://www.guitartabcreator.com
Guitar Tab Creator is intended to store guitar tab created through the tool. It currently does not support in-line text editing. Any text you place in here will be lost. If you need to comment on your tab, please use the "Tab Notes" section located below.