Day Tripper - Beatles

(/) Slide Up  (\) Slide Down  (h) Hammer On  (p) Pull Off  (b) Bend (r) Release (v) Vibrato


E|----------------------|------------------|--
B|----------------------|------------------|--
G|----------------------|------------------|--
D|----------------2--0--|-----4-------0h2--|--
A|-------------2--------|--2-------2-------|--
E|--0----3--4-----------|------------------|--



E|----------------------|------------------|--
B|----------------------|------------------|--
G|----------------2--0--|-----4-------0h2--|--
D|-------------2--------|--2-------2-------|--
A|--0----3--4-----------|------------------|--
E|----------------------|------------------|--



E|--2----------6--------5--------5----------3--
B|--2----------6--------5--------7----------5--
G|--3----------7--------6--------7----------5--
D|--4----------6--------5--------7----------5--
A|--4----------8--------7--------5----------3--
E|--2----------6--------5----------------------
http://www.guitartabcreator.com
Guitar Tab Creator is intended to store guitar tab created through the tool. It currently does not support in-line text editing. Any text you place in here will be lost. If you need to comment on your tab, please use the "Tab Notes" section located below.