My Heart Will Go On ( Celine Dion ) arr. by Michael Hadinata

(/) Slide Up  (\) Slide Down  (h) Hammer On  (p) Pull Off  (b) Bend (r) Release (v) Vibrato

E|--3/5--7-----|-7p8r7--5--3--5--10-|-8\7--3-------|--3/5--7-----|-7p8r7--5--3--5--10-|
B|---------0---|--------------------|---------3--1-|---------0---|--------------------|
G|-----------0-|--------------------|--------------|-----------0-|--------------------|
D|-------------|--------------0-----|--------------|-------------|--------------0-----|
A|-------------|--------------------|------3-----3-|-------------|--------------------|
E|-------3-----|--------------------|--------------|-------3-----|--------------------|

E|--6--9--11--9--4-----|
B|---------------------|
G|-----------------2---|
D|-------------------2-|
A|---------------4-----|
E|---------7-----------|

E|
B|
G|
D|
A|
E|
Guitar Tab Creator is intended to store guitar tab created through the tool. It currently does not support in-line text editing. Any text you place in here will be lost. If you need to comment on your tab, please use the "Tab Notes" section located below.