Other, Night

(/) Slide Up  (\) Slide Down  (h) Hammer On  (p) Pull Off  (b) Bend (r) Release (v) Vibrato
E|----------------------|--|--------------------------|--------------------------|-----
B|----------------------|--|--------------------------|--------------------------|-----
G|-------------2--4-----|--|--2--2--2--4--2-----2--2--|--2--2-----------2--4-----|-----
D|----2--4--5--------5--|--|-----------------5--------|--------2--4--5--------5--|-----
A|----------------------|--|--------------------------|--------------------------|-----
E|----------------------|--|--------------------------|--------------------------|-----



E|--------------------------|--------------------------|--------------------------|-----
B|--------------------------|--------------------------|--------------------------|-----
G|--2--4--2-----2-----------|--------------------------|--------------------------|-----
D|-----------5-----5--2-----|--5--2--------2-----------|--2--2--2--5--4-----2--2--|-----
A|-----------------------5--|--------5--2-----5--2--5--|-----------------5--------|-----
E|--------------------------|--------------------------|--------------------------|-----



E|--------------------------|--------------------------|--------------------------|--
B|--------------------------|--------------------------|--------------------------|--
G|--------------------------|--------------------------|-----------------2--4-----|--
D|--2--2--------2--5--4-----|--2-----------2-----2--4--|--5--5--2--4--5--------5--|--
A|--------2--5-----------5--|-----5--2--5-----5--------|--------------------------|--
E|--------------------------|--------------------------|--------------------------|--



E|--------------------------|--------------------------|--------------------------|--
B|--------------------------|-----------------------3--|-----------3--------5--5--|--
G|--2--2--2--4--2-----2--2--|--2--2-----------2--4-----|--5--5--5-----5--2--------|--
D|-----------------5--------|--------2--4--5-----------|--------------------------|--
A|--------------------------|--------------------------|--------------------------|--
E|--------------------------|--------------------------|--------------------------|--



E|-----------2--3--2--------|--------------------------|--------------------------|--
B|--5-----5-----------5--3--|--5--3-----5--3-----------|--------------------------|--
G|-----2--------------------|--------4--------4--2-----|--4--2-----4--2-----------|--
D|--------------------------|-----------------------5--|--------5--------5--2-----|--
A|--------------------------|--------------------------|-----------------------5--|--
E|--------------------------|--------------------------|--------------------------|--



E|--------------------------|--------------------------|--------------------------|--
B|--------------------------|--------------------------|--------------------------|--
G|--------------------------|--------------------------|--------------------------|--
D|--2--2--2--5--4-----2--2--|--2--2--------2--5--4-----|--2-----------2-----2--4--|--
A|-----------------5--------|--------2--5-----------5--|-----5--2--5-----5--------|--
E|--------------------------|--------------------------|--------------------------|--



E|--------------------------|--|-----2--3-----2-----------|--------------------------|--
B|--------------------------|--|--5--------5-----5--3-----|-----3--5-----3-----------|--
G|-----------------2--4-----|--|-----------------------4--|--5--------5-----4-----4--|--
D|--5--5--2--4--5--------5--|--|--------------------------|--------------------5-----|--
A|--------------------------|--|--------------------------|--------------------------|--
E|--------------------------|--|--------------------------|--------------------------|--



E|--------------------------|--------------------------|--------------------------|--
B|--------------------------|--------------------------|--------------------------|--
G|--2--4--5--2--4-----------|--------------------------|-----------------------4--|--
D|-----------------5--2-----|--2--2--2--5--4-----2--2--|--2--2--------2--4--5-----|--
A|-----------------------5--|-----------------5--------|--------2--5--------------|--
E|--------------------------|--------------------------|--------------------------|--



E|-----2--3----2----------|------------------------|------------------------|-----
B|--5-------------3-------|-----3--5----3----------|------------------------|-----
G|-------------------4----|--5-------------4-------|--2--4--5----4----------|-----
D|------------------------|-------------------5----|----------------5-------|-----
A|------------------------|------------------------|-------------------5----|-----
E|------------------------|------------------------|------------------------|-----



E|--------------------------|--------------------------|--|--
B|--------------------------|--------------------------|--|--
G|--------------------------|--------------------------|--|--
D|--2--2--2--4--2-----2--2--|--2--2--2--2--2--2--2--2--|--|--
A|-----------------5--------|--------------------------|--|--
E|--------------------------|--------------------------|--|--
http://www.guitartabcreator.com
Guitar Tab Creator is intended to store guitar tab created through the tool. It currently does not support in-line text editing. Any text you place in here will be lost. If you need to comment on your tab, please use the "Tab Notes" section located below.