Chromatic metal palm muting riff

(/) Slide Up  (\) Slide Down  (h) Hammer On  (p) Pull Off  (b) Bend (r) Release (v) Vibrato


E|--------------------------------------------------------------------------
B|--------------------------------------------------------------------------
G|--------------------------------------------------------------------------
D|--------------------------------------------------------------------------
A|-----------7-----------------7-----------------7-----------------7--------
E|--0--4--7-----7--4--0--4--7-----7--4--0--5--8-----8--5--0--5--8-----8--5--



E|------------------------------------------------------------------------------
B|------------------------------------------------------------------------------
G|------------------------------------------------------------------------------
D|------------------------------------------------------------------------------
A|-----------9-----------------9------------------9-------------------9---------
E|--0--6--9-----9--6--0--6--9-----9--6--0--7--11-----11--7--0--7--11-----11--7--
http://www.guitartabcreator.com
Guitar Tab Creator is intended to store guitar tab created through the tool. It currently does not support in-line text editing. Any text you place in here will be lost. If you need to comment on your tab, please use the "Tab Notes" section located below.