Megadeth Style Riffing

(/) Slide Up  (\) Slide Down  (h) Hammer On  (p) Pull Off  (b) Bend (r) Release (v) Vibrato

Riff 1
gtr. 1&2
E|--------------------------------------------------------
B|--------------------------------------------------------
G|--------------------------------------------------------
D|--4-----3-----------------------4-----3-----------------
A|--2-----1-----2-----3-----2-----2-----1-----2-----3-----
E|-----0-----0--0--0--1--0--0--0-----0-----0--0--0--1--0--
* * * * * * * * *


E|--------------------------------------------------------
B|--------------------------------------------------------
G|--------------------------------------------------------
D|--------4-----3-----------------------4-----3-----------
A|--2-----2-----1-----2-----3-----2-----2-----1-----2-----
E|--0--0-----0-----0--0--0--1--0--0--0-----0-----0--0--0--
* * * * * * * * *


E|--------------------------------------------------------
B|--------------------------------------------------------
G|--------------------------------------------------------
D|--------------------------------------------------------
A|--3-----2-----2~----------------------------------------
E|--1--0--0--0--0~----------------------------------------
* *

Riff 2
gtr.1
E|----------------------------------------------------------------------
B|----------------------------------------------------------------------
G|----------------------------------------------------------------------
D|----------------------------------------------------------------------
A|-2~-------------------------------------------------------------------
E|-0~-------------------------------------------------------------------


gtr.2
E|----------------------------------------------------------------------
B|----------------------------------------------------------------------
G|----------------------------------------------------------------------
D|----------------------------------------------------------------------
A|-----7---8---9-------------------------7---8---9----------------------
E|-0-0-5-0-6-0-7-0-0-5h8p7-0-0-6h7p6-0-0-5-0-6-0-7-0-0-8h10p8-0-0-6h8p8-
* * * * * * * * * * * * * * * *

gtr. 2 repeats 2 times while gtr. 1 plays open chord at the beginning of
every measure.

http://www.guitartabcreator.com
Guitar Tab Creator is intended to store guitar tab created through the tool. It currently does not support in-line text editing. Any text you place in here will be lost. If you need to comment on your tab, please use the "Tab Notes" section located below.