Mad Caddies - L.G's

(/) Slide Up  (\) Slide Down  (h) Hammer On  (p) Pull Off  (b) Bend (r) Release (v) Vibrato

Stave 1:

E|--7--5--7--5--
B|--8--5--8--5--
G|--9--6--9--6--
D|--9--7--9--7--
A|--7--7--7--7--
E|-----5-----5--

Stave 2:

E|--7----5----3----2----
B|--7----5----3----2----
G|--8----6----4----3----
D|--9----7----5----4----
A|--9----7----5----4----
E|--7----5----3----2----

Stave 3:

E|--7--6--5--4--
B|--7--7--5--5--
G|--8--8--6--6--
D|--9--8--7--6--
A|--9--6--7--4--
E|--7-----5-----

Stave 4:

E|--7--
B|--7--
G|--8--
D|--9--
A|--9--
E|--7--

http://www.guitartabcreator.com
Guitar Tab Creator is intended to store guitar tab created through the tool. It currently does not support in-line text editing. Any text you place in here will be lost. If you need to comment on your tab, please use the "Tab Notes" section located below.