Mad Caddies - Goleta

(/) Slide Up  (\) Slide Down  (h) Hammer On  (p) Pull Off  (b) Bend (r) Release (v) Vibrato

Stave 1:

E|---3---3---3---3---1---2---2---3---2---3---3---2---3---
B|---5---3---5---3---3---2---4---3---4---3---3---4---5---
G|---5---4---5---4---3---3---4---4---4---4---4---4---5---
D|---5---5---5---5---3---4---4---5---4---5---5---4---5---
A|---3---5---3---5---1---4---2---5---2---5---5---2---3---
E|-------3-------3-------2-------3-------3---3-----------

Stave 2:

E|---3---3---3---2------2---2---2---3---
B|---5---5---5---2------4---4---4---5---
G|---5---5---5---3------4---4---4---5---
D|---5---5---5---4------4---4---4---5---
A|---3---3---3---4------2---2---2---3---
E|---------------2----------------------

http://www.guitartabcreator.com
Guitar Tab Creator is intended to store guitar tab created through the tool. It currently does not support in-line text editing. Any text you place in here will be lost. If you need to comment on your tab, please use the "Tab Notes" section located below.