Cup O'Tea Mad Caddies

(/) Slide Up  (\) Slide Down  (h) Hammer On  (p) Pull Off  (b) Bend (r) Release (v) Vibrato

Stave 1:

E|--7--10--5-----
B|--9--10--5-----
G|--9--11--6-----
D|--9--12--7-----
A|--7--12--7-----
E|-----10--5-----

Stave 2:

E|--7--5--5--
B|--9--7--5--
G|--9--7--6--
D|--9--7--7--
A|--7--5--7--
E|--------5--

Stave 3:

E|-------------------------4--------
B|-------9-----7-----6--6-----6-----
G|--7/9-----7-----6--------------6--
D|----------------------------------
A|----------------------------------
E|----------------------------------

Stave 4:

E|-------------------------0--------
B|-------4-----6-----2--2-----2-----
G|--2/4-----6-----2--------------2--
D|----------------------------------
A|----------------------------------
E|----------------------------------

Stave 5:

E|--7--7--5--5--4--
B|--9--9--7--7--6--
G|--9--9--7--7--6--
D|--9--9--7--7--6--
A|--7--7--5--5--4--
E|-----------------

Stave 6:

E|--2--2--4--4--0--
B|--4--4--6--6--2--
G|--4--4--6--6--2--
D|--4--4--6--6--2--
A|--2--2--4--4--0--
E|-----------------

Stave 7:

E|--5--5--7--
B|--5--7--9--
G|--6--7--9--
D|--7--7--9--
A|--7--5--7--
E|--5--------

Stave 8:

E|--5--10--7--
B|--5--10--9--
G|--6--11--9--
D|--7--12--9--
A|--7--12--7--
E|--5--10-----

Stave 9:

E|--7--10----5----5--
B|--9--10----5----5--
G|--9--11----6----6--
D|--9--12----7----7--
A|--7--12----7----7--
E|-----10--4/5--4/5--

http://www.guitartabcreator.com
Guitar Tab Creator is intended to store guitar tab created through the tool. It currently does not support in-line text editing. Any text you place in here will be lost. If you need to comment on your tab, please use the "Tab Notes" section located below.