Onward, Christian Soldiers

(/) Slide Up  (\) Slide Down  (h) Hammer On  (p) Pull Off  (b) Bend (r) Release (v) Vibrato


E|--------------------------------------------------------------------------------------------
B|--------------------------------------------------------------------------------------------
G|-----------------------------------------------8--8--7--5--5--------------------------------
D|--8--8--8--8--8--6--8--------------5-----5--8-----------------5--7--8--------8-----5--6--5--
A|-----------------------8--8--6--8-----6--------------------------------8--8-----8-----------
E|--------------------------------------------------------------------------------------------



E|-----------------------------------------------------------------------------------------------
B|-----------------------------------------------------------------------------------------------
G|--------8-----5--5-----------5-----------5-----------------------------------------------------
D|--8--8-----8--------8--6--8-----8--6--8-----8--6--5--------------------------------------------
A|-----------------------------------------------------8--6--6--6--6--6--5-----5--6--8--8--8-----
E|--------------------------------------------------------------------------8--------------------



E|-----------------------------------------------
B|-----------------------------------------------
G|-----------------8--7--8-----------------------
D|--------5--8--8-----------8--6--5--------------
A|--6--8-----------------------------8--6--6-----
E|-----------------------------------------------
http://www.guitartabcreator.com
Guitar Tab Creator is intended to store guitar tab created through the tool. It currently does not support in-line text editing. Any text you place in here will be lost. If you need to comment on your tab, please use the "Tab Notes" section located below.