Skurk lag 1 lead hraða Guðni

(/) Slide Up  (\) Slide Down  (h) Hammer On  (p) Pull Off  (b) Bend (r) Release (v) Vibrato


E|----------------------------------------------------------------
B|----------------------------------------------------------------
G|--12--11--9--11--12--11--9--11--16--14--12--14--16--14--12--14--
D|----------------------------------------------------------------
A|----------------------------------------------------------------
E|----------------------------------------------------------------



E|----------------------------------------------------------------
B|----------------------------------------------------------------
G|--12--11--9--11--12--11--9--11--16--14--12--14--16--14--12--14--
D|----------------------------------------------------------------
A|----------------------------------------------------------------
E|----------------------------------------------------------------



E|----------------------------------15--14--12--14--15--14--12--14-----------------------
B|--15--13--12--13--15--13--12--13----------------------------------15b17--15b17--15b17--
G|---------------------------------------------------------------------------------------
D|---------------------------------------------------------------------------------------
A|---------------------------------------------------------------------------------------
E|---------------------------------------------------------------------------------------
http://www.guitartabcreator.com
Guitar Tab Creator is intended to store guitar tab created through the tool. It currently does not support in-line text editing. Any text you place in here will be lost. If you need to comment on your tab, please use the "Tab Notes" section located below.