Skurk 1 2012

(/) Slide Up  (\) Slide Down  (h) Hammer On  (p) Pull Off  (b) Bend (r) Release (v) Vibrato


E|-----------------------------------------------------------------------------
B|------------7h8p7-------------------7h8p7-----7------------------------------
G|--9------9---------9------9------9---------9---------------------------------
D|-----10---------------10-----10----------------------------------------------
A|-------------------------------------------------9--9h10p7--7h9p5--5h7p4-----
E|-----------------------------------------------------------------------------



E|---------------------------------------7-----------------------------------
B|------------7h8p7---------8--7--8--10-----10p8h10--7--7h8p5--5h7p3--3h5p0--
G|--9------9---------9-------------------------------------------------------
D|-----10---------------10---------------------------------------------------
A|---------------------------------------------------------------------------
E|---------------------------------------------------------------------------



E|--------------------------------------------------------------------------
B|------------7h8p7-------------------7h8p7-----7---------------------------
G|--9------9---------9------9------9---------9------------------------------
D|-----10---------------10-----10------------------9--9h10p7--7h9p5--5h7p4--
A|--------------------------------------------------------------------------
E|--------------------------------------------------------------------------



E|---------------------------------------7----------------------7h8h10--7h10h12--
B|------------7h8p7---------8--7--8--10-----10p8h10--7--7h8h10-------------------
G|--9------9---------9-----------------------------------------------------------
D|-----10---------------10-------------------------------------------------------
A|-------------------------------------------------------------------------------
E|-------------------------------------------------------------------------------
http://www.guitartabcreator.com
Guitar Tab Creator is intended to store guitar tab created through the tool. It currently does not support in-line text editing. Any text you place in here will be lost. If you need to comment on your tab, please use the "Tab Notes" section located below.