Forked

(/) Slide Up  (\) Slide Down  (h) Hammer On  (p) Pull Off  (b) Bend (r) Release (v) Vibrato

Intro
guitar
E|------------------------------------------------------------
B|------------------------------------------------------------
G|------------------------------------------------------------
D|-5-7-4--5-7-6--4-5-6--6-6-6-6------3-------3-------3-------3
A|-----------------------4-4-4-------0-------0-------0-------0
E|-----------------------------------2--2-2--2--2-2--2--2-2--2

bass
G|------------------------------------------------------------
D|------------------------------------------------------------
A|------------------------------------------------------------
E|---------------------4-4-4-4-4-4-4-1\\\\\\\5//////1\\\\\\\\5



Verse 1
guitar
My Underwear's fallin' off, And this time its not my fault, ohhhhhhhhhhhhhhh

E|------------------------------------------------------------------------8-8------------------
B|-----------------------------------------------------------------------7---7-----------------
G|----------------------------------------------------------------------6-----6----------------
D|------------------------------------------------------------------------------------------
A|-2-2-2-2-2-2-2---2-2-2-2-2-2-2---2-2-2-2-2-2-2---2-2-2-2-2-2-2-------------------------
E|---------------3---------------3---------------3---------------3---------------------------

bass
G|-------------------------------------------------------------------------------------
D|-4-4-4-4-4-4-4---4-4-4-4-4-4-4---4-4-4-4-4-4-4---4-4-4-4-4-4-4------------------------
A|---------------3---------------3---------------3---------------3----------------------
E|----------------------------------------------------------------------------------------




Still waiting to whack, but its okay because it takes some time, ohhhhhhhhhhhhhhhhh
guitar
E|------------------------------------------------------------------------8-8------------------
B|-----------------------------------------------------------------------7---7-----------------
G|----------------------------------------------------------------------6-----6----------------
D|------------------------------------------------------------------------------------------
A|-2-2-2-2-2-2-2---2-2-2-2-2-2-2---2-2-2-2-2-2-2---2-2-2-2-2-2-2-------------------------
E|---------------3---------------3---------------3---------------3---------------------------


bass
G|-------------------------------------------------------------------------------------
D|-4-4-4-4-4-4-4---4-4-4-4-4-4-4---4-4-4-4-4-4-4---4-4-4-4-4-4-4------------------------
A|---------------3---------------3---------------3---------------3----------------------
E|----------------------------------------------------------------------------------------

Now that my hand's stuck in the tiolet, I've only got one hand free, ohhhhhhhhhhhhhhh

guitar
E|------------------------------------------------------------------------8-8------------------
B|-----------------------------------------------------------------------7---7-----------------
G|----------------------------------------------------------------------6-----6----------------
D|------------------------------------------------------------------------------------------
A|-2-2-2-2-2-2-2---2-2-2-2-2-2-2---2-2-2-2-2-2-2---2-2-2-2-2-2-2-------------------------
E|---------------3---------------3---------------3---------------3---------------------------


bass
G|-------------------------------------------------------------------------------------
D|-4-4-4-4-4-4-4---4-4-4-4-4-4-4---4-4-4-4-4-4-4---4-4-4-4-4-4-4------------------------
A|---------------3---------------3---------------3---------------3----------------------
E|----------------------------------------------------------------------------------------

Chorus
guitar
I feel like taking a nap, but theirs no time, and i've lost all motavatioooon

E|------------------------------------------------------------------------------------------
B|---------------------------------------------------------------------------------------
G|--------------------------------------------------------------------------------------
D|--3-3--4--3-3--4--3-3--4--3-3--4--3-3--4-3-3--4--3-3--4--3-3--4--3-3------------------
A|-------4-------4-------4-------4-------4------4-------4-------4-------------------------
E|-------4-------4-------4-------4-------4------4-------4-------4-------2-2-2-2-2-2-2------

bass
G|--------------------------------------------------------------------------------------
D|-------------------------------------------------------------------------------------
A|-----------------------------------------------------------------------------------
E|------2--------2-------2-------2-------2------2-------2--------2---------------------

I need to expand my mind, but its all dead, and i need to have some patientenceeeeee


Riff 1
guitar

E|-------------------------------- B|------------------------------------------------
G|--------------------------------------------------------------------- D|-5-7-4--5-7-6--4-5-6--6-6-6-6------3-------3-------3-------3--------
A|-----------------------4-4-4-------0-------0-------0-------0----------
E|-----------------------------------2--2-2--2--2-2--2--2-2--2---------

bass
G|------------------------------------------------------------
D|-3-3-3-3-3-3-3-3-3---------------------------------------------------
A|--2-2-2-2-2-2-2-2---------------------------------------------------
E|---------------------4-4-4-4-4-4-4-1\\\\\\\5//////1\\\\\\\\5
Guitar Tab Creator is intended to store guitar tab created through the tool. It currently does not support in-line text editing. Any text you place in here will be lost. If you need to comment on your tab, please use the "Tab Notes" section located below.