Try Acrobatics - Replica (intro)


E|-----------------------------
B|--------3-----------------6--
G|--------------------3--5-----
D|--5--5-----3--4--5-----------
A|-----------------------------
E|-----------------------------



E|-----------------------------
B|--------3-----------------6--
G|--------------------3--5-----
D|--5--5-----3--4--5-----------
A|-----------------------------
E|-----------------------------



E|--------------------------
B|-----------------------6--
G|-----------------3--5-----
D|--1--1--3--4--5-----------
A|--------------------------
E|--------------------------



E|-----------------------------
B|-----------------------6--6--
G|-----------------3--5--------
D|--1--1--3--4--5--------------
A|-----------------------------
E|-----------------------------



E|-----------------------------
B|--------3-----------------6--
G|--------------------3--5-----
D|--5--5-----3--4--5-----------
A|-----------------------------
E|-----------------------------



E|-----------------------------
B|--------3-----------------6--
G|--------------------3--5-----
D|--5--5-----3--4--5-----------
A|-----------------------------
E|-----------------------------



E|--------------------------
B|-----------------------6--
G|-----------------3--5-----
D|--1--1--3--4--5-----------
A|--------------------------
E|--------------------------

E|--------------------------
B|-----------------------6--
G|-----------------3--5-----
D|--1--1--3--4--5-----------
A|--------------------------
E|--------------------------
Guitar Tab Creator is intended to store guitar tab created through the tool. It currently does not support in-line text editing. Any text you place in here will be lost. If you need to comment on your tab, please use the "Tab Notes" section located below.