Paranoid

(/) Slide Up  (\) Slide Down  (h) Hammer On  (p) Pull Off  (b) Bend (r) Release (v) Vibrato

(W|WW) Whole (H|HH) Half (Q|QQ) Quarter (E|EE) 8th (S|SS) 16th (T|TT) 32nd (X|XX) 64th

E|------------------------------------------
B|------------------------------------------
G|------------------------------------------
D|--14--14--14---------12h14---------12h14--
A|--14--14--14--12h14---------12h14---------
E|--12--12--12------------------------------



E|------------------------------------------
B|--------------------------------------12--
G|--------------------------12----------12--
D|--14--14--14--14--12--12--12--12--14--12--
A|--14--14--14--14--12--12--10--12--14------
E|--12--12--12--12--10--10------10--12------



E|------------------
B|------------------
G|------------------
D|--14--10--12--14--
A|--14--10--12--14--
E|--12--8---10--12--


t: WW WW WW WW
E|------------------
B|------------------
G|------------------
D|--14--12--14--12--
A|--14--12--14--12--
E|--12--10--12--10--
http://www.guitartabcreator.com
Guitar Tab Creator is intended to store guitar tab created through the tool. It currently does not support in-line text editing. Any text you place in here will be lost. If you need to comment on your tab, please use the "Tab Notes" section located below.