payphone

(/) Slide Up  (\) Slide Down  (h) Hammer On  (p) Pull Off  (b) Bend (r) Release (v) Vibrato
E|-----0--2/9v-----7--7--6-----h7v--------7--6-----6h7v--6---------------
B|--4-----------------------7--5------7--7--------7-----------7--11--9-----
G|------------------------------------------------------------------------
D|------------------------------------------------------------------------
A|------------------------------------------------------------------------
E|------------------------------------------------------------------------



E|-----------------------------|-----------------------------|-----------------------------|-----
B|--4----4----4--4----4--4--4--|--4----4----4--4----4--4--4--|--4----4----4--4----4--4--4--|-----
G|--4----4----4--4----4--4--4--|--4----4----4--4----4--4--4--|--4----4----4--4----4--4--4--|-----
D|--2----2----2--2----2--2--2--|--4----4----4--4----4--4--4--|--6----6----6--6----6--6--6--|-----
A|-----------------------------|-----------------------------|-----------------------------|-----
E|-----------------------------|-----------------------------|-----------------------------|-----



E|--
B|--
G|--
D|--
A|--
E|--
http://www.guitartabcreator.com
Guitar Tab Creator is intended to store guitar tab created through the tool. It currently does not support in-line text editing. Any text you place in here will be lost. If you need to comment on your tab, please use the "Tab Notes" section located below.