well pause tomorrow

(/) Slide Up  (\) Slide Down  (h) Hammer On  (p) Pull Off  (b) Bend (r) Release (v) Vibrato

E|-------------------------------------------------------------------
B|-------------------------------------------------------------------
G|-------------------------------------------------------------------
D|-3-----2-----------------5---------8-----7-----------7-----5-------
A|-------------5-----3---------8-----------------8-----------------7-
E|---0-0---0-0---0-0---0-0---0---0-0---0-0---0-0---0-0---0-0---0-0---



E|-----------------------------------------------
B|-----------------------------------------------
G|-----------------------------------------------
D|-0-0-0-0-0-0-3-3-3-3-8-8-8-8-7-7-7-7-5-5-5-5---
A|-0-0-0-0-0-0-3-3-3-3-8-8-8-8-7-7-7-7-5-5-5-5---
E|-0-0-0-0-0-0-3-3-3-3-8-8-8-8-7-7-7-7-5-5-5-5---



E|----------------------------------------------------------------
B|----------------------------------------------------------------
G|----------------------------------------------------------------
D|-------------------5p0------------------------------------------
A|-----2---2h3p2---------7p0-5p0-----12---8h10p8h10-----8---8-7-5-
E|-0-0---0-------3-3-------------8-8----8-----------5-5---5-------



E|-------------------------------|-------
B|-------------------------------|-------
G|-------------------------------|-------
D|-0-0-0-0-0-0-3-3-3-8-8-8-7-7-7-|-7-8-7-
A|-0-0-0-0-0-0-3-3-3-8-8-8-7-7-7-|-7-8-7-
E|-0-0-0-0-0-0-3-3-3-8-8-8-7-7-7-|-7-8-7-



E|---------|---------|---------------------|---------|--------------------|---
B|---------|---------|---------------------|---------|--------------------|---
G|---------|---------|---------------------|---------|--------------------|---
D|---------|---------|---------------------|---------|--------------------|---
A|-----5---|-----5---|-----5---8-7-5-------|-----5---|---5---10-8-7-----8-|---
E|-0-0---0-|-0-0---0-|-0-0---0-------8-7-5-|-0-0---0-|-0---0--------8-7---|---



E|---------|---------|---------------------|---------
B|---------|---------|---------------------|---------
G|---------|---------|---------------------|---------
D|---------|---------|---------------------|-7-8-7-5-
A|-----5---|-----5---|-----5---8-7-5-------|-5-6-5-3-
E|-0-0---0-|-0-0---0-|-0-0---0-------8-7-5-|---------



E|---------------------------------------
B|---------------------------------------
G|---------------------12----------------
D|-8-8-8-8-10-10-10-10-12-12-12-12-12-12-
A|-8-8-8-8-10-10-10-10-12-12-12-12-12-12-
E|-8-8-8-8-10-10-10-10-12-12-12-12-12-12-



E|-------------------------------------
B|-------------------------------------
G|-------------------------------------
D|-8-8-8-10-10-10-5-5-5-7-7-7-8-8-8-10-
A|-8-8-8-10-10-10-5-5-5-7-7-7-8-8-8-10-
E|-8-8-8-10-10-10-5-5-5-7-7-7-8-8-8-10-



E|--------------------------------------
B|--------------------------------------
G|--------------------------------------
D|--------------------------------------
A|--------------------------------------
E|--3--6--3--6--3--6--2--5--2--5--2--5--
http://www.guitartabcreator.com
Guitar Tab Creator is intended to store guitar tab created through the tool. It currently does not support in-line text editing. Any text you place in here will be lost. If you need to comment on your tab, please use the "Tab Notes" section located below.