under the floor boreds

(/) Slide Up  (\) Slide Down  (h) Hammer On  (p) Pull Off  (b) Bend (r) Release (v) Vibrato
E|-------------------------------------------------------------------------------------
B|-------------------------------------------------------------------------------------
G|-------------------------------------------------------------------------------------
D|-------------------------------------------------------------------------------------
A|-------5-------8-------7-------3-----3---3h5-------5-------5---5-------5-------5---5-
E|-0-0-0---0-0-0---0-0-0---0-0-0---0-0---0-----8-8-8---8-8-8---8---7-7-7---7-7-7---7---



E|--------------------------------------------------------------------------------------------
B|--------------------------------------------------------------------------------------------
G|--------------------------------------------------------------------------------------------
D|--------------------------------------------------------------------------------------------
A|-------5-------8-------7-------3-----3---3h5-------7-------7---7----------8----------8----8-
E|-0-0-0---0-0-0---0-0-0---0-0-0---0-0---0-----8-8-8---8-8-8---8---10-10-10---10-10-10---10---



E|-------------------------------------------------------------------------------------
B|-------------------------------------------------------------------------------------
G|--------------------------------------------------------------9-------------------12-
D|-----------------------------------8-----------------8---10-----10----10----12-------
A|-----5-----8-----7-----3---3---3h5-8---8---10---12--------------10-------------------
E|-0-0---0-0---0-0---0-0---0---0-----8-8---8----8----8---8----8---10-10----10----10----



E|-------------------------------------------------------
B|-------------------------------------------------------
G|-------------------------------------------------------
D|-1-0-0-0-1-0-0-6-5---1-0-0-0-1-0-0-0---7---8---7---5-5-
A|-1-0-0-0-1-0-0-6-5---1-0-0-0-1-0-0-0---5---6---5---3-3-
E|-1-0-0-0-1-0-0-6-5-0-1-0-0-0-1-0-0-0-0---0---0---0-----



E|--------------------------------------------------------------------------------
B|--------------------------------------------------------------------------------
G|--------------------------------------------------------------------------------
D|--------------------------------------------------------------------------------
A|-----5-----8-----7-----10-----8-----7--7h8p7--------7-----8----------8------10--
E|--0-----0-----0-----0------0-----0------------8--8-----8-----10--10-----10------
http://www.guitartabcreator.com
Guitar Tab Creator is intended to store guitar tab created through the tool. It currently does not support in-line text editing. Any text you place in here will be lost. If you need to comment on your tab, please use the "Tab Notes" section located below.