pumpkin

(/) Slide Up  (\) Slide Down  (h) Hammer On  (p) Pull Off  (b) Bend (r) Release (v) Vibrato

E|-----------------
B|-----------------
G|-----------------
D|-0-3-5-7-8-0-0-0-
A|-0-3-5-7-8-0-0-0-
E|-0-3-5-7-8-0-0-0-



E|---------------------
B|---------------------
G|---------------------
D|-----3---2---3-3h5---
A|---------------------
E|-0-0---0---0---------



E|--------------------------------------------------------
B|--------------------------------------------------------
G|--------------------------------------------------------
D|--------------------------------------------------------
A|-----12---10---8-----12---10---8-----8---10---12---10---
E|-8-8----8----8---8-8----8----8---8-8---8----8----8------



E|--
B|--
G|--
D|--
A|--
E|--
http://www.guitartabcreator.com
Guitar Tab Creator is intended to store guitar tab created through the tool. It currently does not support in-line text editing. Any text you place in here will be lost. If you need to comment on your tab, please use the "Tab Notes" section located below.