new song osf

(/) Slide Up  (\) Slide Down  (h) Hammer On  (p) Pull Off  (b) Bend (r) Release (v) Vibrato

E|-------------------------------------------------------------------------------------------
B|-------------------------------------------------------------------------------------------
G|-------------------------------------------------------------------------------------------
D|-------------------------------------------------------------------------------------------
A|-----8---8-7-5-----8---8-7-5-----5---5-----5---5-----4---4-----4---4-----5---5-----5---5---
E|-0-0---0-------0-0---0-------8-8---8---8-8---8---7-7---7---7-7---7---5-5---5---5-5---5-----



E|-----------------------------------------------------------------------------------------
B|-----------------------------------------------------------------------------------------
G|-----------------------------------------------------------------------------------------
D|-----------------------------------------------------------------------------------------
A|-----8---8-7-5-----8---8-7-5-----5---5-----5---5-----4---4-----4---4-----5---5-----5---5-
E|-0-0---0-------0-0---0-------8-8---8---8-8---8---7-7---7---7-7---7---5-5---5---5-5---5---



E|---------------------------------
B|---------------------------------
G|---------------------------------
D|-0-0-8-8-5-5-7-7-0-0-8-8-5-5-7-7-
A|-0-0-8-8-5-5-7-7-0-0-8-8-5-5-7-7-
E|-0-0-8-8-5-5-7-7-0-0-8-8-5-5-7-7-



E|---------------------------------------------------------------
B|---------------------------------------------------------------
G|---------------------------------------------------------------
D|---------------------------------------------------------------
A|-----5---8-----12---10-----13---12-----3---7-----8---7---5---3-
E|-0-0---0---0-0----0----0-0----0----0-0---0---0-0---0---0---0---



E|---------------------------------------------------------------
B|---------------------------------------------------------------
G|---------------------------------------------------------------
D|---------------------------------------------------------------
A|-----5---8-----12---10-----13---12-----3---7-----8---7---5---3-
E|-0-0---0---0-0----0----0-0----0----0-0---0---0-0---0---0---0---



E|-------------------------------------------------------------
B|-------------------------------------------------------------
G|-------------------------------------------------------------
D|-8-8-8-8-8-8-8-8-5-5-5-5-7-7-7-7-----------------------------
A|-8-8-8-8-8-8-8-8-5-5-5-5-7-7-7-7-----3---8-----8---7---5---3-
E|-8-8-8-8-8-8-8-8-5-5-5-5-7-7-7-7-0-0---0---0-0---0---0---0---



E|-------------------------------------------------------------
B|-------------------------------------------------------------
G|-------------------------------------------------------------
D|-8-8-8-8-8-8-8-8-7-7-7-7-10-10-----7---5-----8---7---5-----7-
A|-8-8-8-8-8-8-8-8-7-7-7-7-10-10-------------------------------
E|-8-8-8-8-8-8-8-8-7-7-7-7-10-10-0-0---0---0-0---0---0---0-0---



E|------------------------------------------------------------
B|------------------------------------------------------------
G|------------------------------------------------------------
D|------------------------------------------------------------
A|-5-5-8-5-5-8-5-8/8-8-12-8-10-8-13/3-3-7-3-7/5-5-8-5-8-7-5-3-
E|------------------------------------------------------------



E|------------------------------------------------------------
B|------------------------------------------------------------
G|------------------------------------------------------------
D|------------------------------------------------------------
A|-5-5-8-5-5-8-5-8/8-8-12-8-10-8-13/3-3-7-3-7/5-5-8-5-8-7-5-3-
E|------------------------------------------------------------



E|-----|---------------|-----|-------------------
B|-----|---------------|-----|-------------------
G|-----|---------------|-----|-------------------
D|-0-0-|-0-0-----------|-0-0-|-0-0---------------
A|-0-0-|-0-0-5-8-7-3-7-|-0-0-|-0-0-8-12-10-13-12-
E|-0-0-|-0-0-----------|-0-0-|-0-0---------------



E|--
B|--
G|--
D|--
A|--
E|--
http://www.guitartabcreator.com
Guitar Tab Creator is intended to store guitar tab created through the tool. It currently does not support in-line text editing. Any text you place in here will be lost. If you need to comment on your tab, please use the "Tab Notes" section located below.