Holden Perpelitz

Holden Perpelitz       Guitar Tabs      Untitled 
Tuning: Drop C#

Intro:

E|--------------------------------------------------------------------------|
B|---------6-------6--x66-6------6---------6--x66-6-------------------------|
G|---------9-------9--x99-9------9---------9--x99-9-------------------------|
D|--0-0-0----0-0-0----------0-0-0----0-0-0----------8-8-8-8-8-8-7-7-7-7-7-7-|
A|--0-0-0----0-0-0----------0-0-0----0-0-0----------8-8-8-8-8-8-7-7-7-7-7-7-|
E|--0-0-0----0-0-0----------0-0-0----0-0-0----------8-8-8-8-8-8-7-7-7-7-7-7-|
* * * *

E|-----------------------------|
B|-----------------------------|
G|-----------------------------|
D|--0~~~---0~~~---0~~~---0~~~--|
A|--0~~~---0~~~---0~~~---0~~~--|
E|--0~~~---0~~~---0~~~---0~~~--|


E|-------------------------------------------------|
B|-------------------------------------------------|
G|-------------------------------------------------|
D|--0-0-0-1~--0-0-0-0-1-3---0-0-0-1~--0-0-0-0-3-1--| X2
A|--0-0-0-1~--0-0-0-0-1-3---0-0-0-1~--0-0-0-0-3-1--|
E|--0-0-0-1~--0-0-0-0-1-3---0-0-0-1~--0-0-0-0-3-1--|


E|-------------------------------------------------------------------------|
B|-------------------------------------------------------------------------|
G|-------------------------------------------------------------------------|
D|-------------------------------------------------------------------------| X4
A|-------------------------------------------------------------------------|
E|--0000-00-0000-00-0000-00--1111-3333--0000-00-0000-00-0000-00-6666-5555--|


E|--------------|
B|------6-6-6---|
G|------9-9-9---|
D|--0-----------| X4
A|--0-----------|
E|--0-----------|


E|-----------------------------------------------------------------------------------
B|-----------------------------------------------------------------------------------
G|-----------------------------------------------------------------------------------
D|--8-8-8-8-8-8-7-7-7-7-7-7--00-00~-000000-00-00--00000000--3-3-3-3-3-3-5-5-5-5-5-5--
A|--8-8-8-8-8-8-7-7-7-7-7-7--00-00~-000000-00-00--00000000--3-3-3-3-3-3-5-5-5-5-5-5--
E|--8-8-8-8-8-8-7-7-7-7-7-7--00-00~-000000-00-00--00000000--3-3-3-3-3-3-5-5-5-5-5-5--
** ** ****** ** ** ********

Second Time
E|-----------------------------------| E|-----------|
B|-----------------------------------| B|-----------|
G|-----------------------------------| G|-----------|
D|----00-00~-000000-00-00--00000000--| X2 D|--0~~~~~~--|
A|----00-00~-000000-00-00--00000000--| A|--0~~~~~~--|
E|----00-00~-000000-00-00--00000000--| E|--0~~~~~~--|
** ** ****** ** ** ********


E|----------------------|
B|----------------------|
G|----------------------|
D|--0-0-0-0~-0-0-0-0~0--| X4
A|--0-0-0-0~-0-0-0-0~0--|
E|--1-1-1-1~-1-1-1-1~1--|
* * * * * * *

AFTER X4 ADD THIS
E|--------------------------| E|--0-0-0-0--0-0-0-0--0000--|
B|--------------------------| B|--6-6-6-6--6-6-6-6--6666--|
G|--------------------------| G|--9-9-9-9--9-9-9-9--9999--|
D|--0-0-0-0--0-0-0-0--0000--| X8 D|--0-0-0-0--0-0-0-0--0000--| X4
A|--0-0-0-0--0-0-0-0--0000--| A|--0-0-0-0--0-0-0-0--0000--|
E|--0-0-0-0--0-0-0-0--0000--| E|--0-0-0-0--0-0-0-0--0000--|


E|-----------------------------------------------------------------------------------
B|-----------------------------------------------------------------------------------
G|-----------------------------------------------------------------------------------
D|--8-8-8-8-8-8-7-7-7-7-7-7--00-00~-000000-00-00--00000000--3-3-3-3-3-3-5-5-5-5-5-5--
A|--8-8-8-8-8-8-7-7-7-7-7-7--00-00~-000000-00-00--00000000--3-3-3-3-3-3-5-5-5-5-5-5--
E|--8-8-8-8-8-8-7-7-7-7-7-7--00-00~-000000-00-00--00000000--3-3-3-3-3-3-5-5-5-5-5-5--
** ** ****** ** ** ********


E|-----------------------------------|
B|-----------------------------------|
G|-----------------------------------|
D|----00-00~-000000-00-00--00000000--| X2
A|----00-00~-000000-00-00--00000000--|
E|----00-00~-000000-00-00--00000000--|
** ** ****** ** ** ********


E|---------------------------------------------------|
B|---------------------------------------------------|
G|---------------------------------------------------|
D|--8-8-8-8-8-8-7-7-7-7-7-7-3-3-3-3-3-3-5-5-5-5-5-5--| X2
A|--8-8-8-8-8-8-7-7-7-7-7-7-3-3-3-3-3-3-5-5-5-5-5-5--|
E|--8-8-8-8-8-8-7-7-7-7-7-7-3-3-3-3-3-3-5-5-5-5-5-5--|


E|-------------------------------|
B|-------------------------------|
G|-------------------------------|
D|--888888-777777-333333-555555--| X2
A|--888888-777777-333333-555555--|
E|--888888-777777-333333-555555--|



E|--------------------------|
B|--------------------------|
G|--------------------------|
D|--0-0-0-0--0-0-0-0--0000--| X3
A|--0-0-0-0--0-0-0-0--0000--|
E|--0-0-0-0--0-0-0-0--0000--|


E|----------------------|
B|----------------------|
G|----------------------|
D|--0-0-0-0--0-0-0-0~~--| X3
A|--0-0-0-0--0-0-0-0~~--|
E|--0-0-0-0--0-0-0-0~~--|
Guitar Tab Creator is intended to store guitar tab created through the tool. It currently does not support in-line text editing. Any text you place in here will be lost. If you need to comment on your tab, please use the "Tab Notes" section located below.