thrsfdgb

(/) Slide Up  (\) Slide Down  (h) Hammer On  (p) Pull Off  (b) Bend (r) Release (v) Vibrato

E|--------------------------------------------------------------------------
B|--------------------------------------------------------------------------
G|--------------------------------------------------------------------------
D|--------------------------------------------------------------------------
A|--------5--0--2--2--0--2--2--0--2--2--0--2--2--0--2--4--0--0--2--4--0--0--
E|--2--2--------------------------------------------------------------------



E|--------------------------------------------------------------------
B|--------------------------------------------------------------------
G|--------------------------------------------------------------------
D|--------------------------------------------------------------------
A|--------5--0--2--2--0--2--2--0--2--2--0--4--4--0--5--5--0--7--7--0--
E|--2--2--------------------------------------------------------------



E|------------------------------------------------------
B|------------------------------------------------------
G|------------------------------------------------------
D|------------------------------------------------------
A|--14--14--14--12--16--14--12----9--9--12--9--7--7--9--
E|------------------------------------------------------



E|------------------------------
B|------------------------------
G|------------------------------
D|------------------------------
A|--14--14--14--12--17--16--14--
E|------------------------------



E|------------------------------------------------------------------------------------------------------------------------------------
B|------------------------------------------------------------------------------------------------------------------------------------
G|------------------------------------------------------------------------------------------------------------------------------------
D|------------------------------------------------------------------------------------------------------------------------------------
A|----------------------------------------------------------------------12----------------12----------------12--14------------12--14--
E|--14--14--14----14--14--14----14--14--14----14--14--12--14----14--14------14----14--14------14----14--14------------14--14----------
http://www.guitartabcreator.com
Guitar Tab Creator is intended to store guitar tab created through the tool. It currently does not support in-line text editing. Any text you place in here will be lost. If you need to comment on your tab, please use the "Tab Notes" section located below.