bacltrack

(/) Slide Up  (\) Slide Down  (h) Hammer On  (p) Pull Off  (b) Bend (r) Release (v) Vibrato

E|---------------------------------------------------------------------------------
B|---------------------------------------------------------------------------------
G|---------------------------------------------------------------------------------
D|---------------------------------------------------------------------------------
A|-----------8--8--8--6--6--6----------------------8--8--8--6--6--6----------------
E|--8--8--8--------------------8--8--8----8--8--8--------------------8--8----6--8--



E|------------------------------------------------------------------------------------------------------------
B|------------------------------------------------------------------------------------------------------------
G|------------------------------------------------------------------------------------------------------------
D|------------------------------------------------------------------------------------------------------------
A|-----------8-----------8--6-----------6-----------6--8-----------6-----------6------------------------------
E|--8--8--8-----8--8--8--------6--6--6-----6--6--6--------4--4--4-----3--3--3-----8--8--8----8--8--8--10--11--



E|-----------
B|-----------
G|-----------
D|-----------
A|-----------
E|--1--3-----



E|--------------------------------
B|--------------------------------
G|--------------------------------
D|--------------------------------
A|-----6--8--10-------6-----------
E|--8--------------8-----3--4--6--



E|----------------------------------
B|----------------------------------
G|----------------------------------
D|----------------------------------
A|----------------------------------
E|--11--10--9--8----11--10--9--8----
http://www.guitartabcreator.com
Guitar Tab Creator is intended to store guitar tab created through the tool. It currently does not support in-line text editing. Any text you place in here will be lost. If you need to comment on your tab, please use the "Tab Notes" section located below.