Riffs 1

(/) Slide Up  (\) Slide Down  (h) Hammer On  (p) Pull Off  (b) Bend (r) Release (v) Vibrato


E|-----------------------------------------------------------------
B|-----------------------------------------------------------------
G|-----------------------------------------------------------------
D|-----------------------------7-7-6-5-----7-7-6-5-4-4-3-3---------
A|-----6-6-5-4-----6-6-5-4-5-5---------5-5-----------------3-3-4-4-
E|-4-4---------4-4-------------------------------------------------



E|-----------------------------------------------------------------------------------
B|-----------------------------------------------------------------------------------
G|-----------------------------------------------------------------------------------
D|---------------------------------------------------8-7-6---8-7-6---8-7-6---8-7-6---
A|---4-3-2---4-3-2---4-3-2---4-3-2-3-3-3-3-4-4-4-4/7-------7-------7-------7---------
E|-3-------3-------3-------3---------------------------------------------------------



E|----------------------------------------------------------------------------------------------
B|----------------------------------------------------------------------------------------------
G|--------------------13-12-11----13-12-11----13-12-11----13-12-11-12-12-12-12-13-13-13-13/16/0-
D|-7-7-7-7-8-8-8-8/12----------12----------12----------12---------------------------------------
A|----------------------------------------------------------------------------------------------
E|----------------------------------------------------------------------------------------------



E|-
B|-
G|-
D|-
A|-
E|-
http://www.guitartabcreator.com
Guitar Tab Creator is intended to store guitar tab created through the tool. It currently does not support in-line text editing. Any text you place in here will be lost. If you need to comment on your tab, please use the "Tab Notes" section located below.