Ugly

(/) Slide Up  (\) Slide Down  (h) Hammer On  (p) Pull Off  (b) Bend (r) Release (v) Vibrato
Capo 1

E|----------------------- ---------0------------------------0------------------------
B|------------0--0--1--0- --0--3------3--1--0-----0---3--------3--1--0------------------
G|--2-------0----0------- * -----0------------------------------------------------------
D|--0----0---------------- * --0--------------------------------------------------------
A|--0--------------------- ---------0------------------------0-------------------------
E|--3-------------------- ------------------------------------------------------------

E|---3--2-------------3---2--------------------------------------------------------------
B|----------3----3------------3----3h-5-----------------------0-0--1-0--------------------
G|--------------------------------------------------2------0----0-----------0---0---0--------
D|--------------------------------------------------0---0-----------------0---0---0---------
A|-----------------------------------------x---x----0------x----x-----------x--------------
E|---3-------------------------------------x---x----3------x----x------3---x--x---x----------

E|-------------------------------------------------0---------------------0------------
B|------------0-0-1--0----------------------0--3------3--1--0----0---3------3--1--0------
G|--2-------0---0------------0----0------------0------------------------------------------
D|--0---0------------------0---0----0-------0---------------------------------------------
A|--0--------------------------------------------------------------------0------------
E|--3-------------------3-------------------------------------------------------------

E|--3--2-----------3---2----------<>13-------------------------------------------------
B|--------3---3------------3---3---------0---------0------3--0--------0----------------
G|-------------------------2---2---------0---------0----0-0--0--0--2--0------------
D|----------------------------------------------------0---------0--0-------------
A|--------3---3-----------------------------x---x---------------------------------
E|--3------------------------------------3--3--3---3------3--3--------3-------------

E|------------------------------------------------------------------------------------
B|-------------3--/5--3------0------------0-----------0---------0--1---0--------------------
G|-------------0--/5--0--2---0--2--0------0--2--0--2--0--2--0---0----------2--------0--------------
D|--0--0--0--0-----------0------0--0-0-0-----0--0--0-----0--2--------------0--0--0----------------
A|-------------------------------------------------------------------------0--0--0--------
E|-------------------------------------------------------------------------3----------------

E|--------------------------------------------------------------------------------------------
B|------------3---0----0------0-------0---3--1-----0-------0--0-------------------------------
G|----0--2-------------0--0---0---0---0---0--0--0--0---2----------2----2---0---2---2--------------
D|-2--------------------------------------------------------------0----0---0---0---0--------------
A|---------------------3--3---3---3---3---3--3--3--3-3--3---------0---------------------------
E|----------------------------------------------------------------3----------------------------

E|---------- 0-0-----0-----0--------0--------0------------3---2-------------------------------
B|--3--3---------3 ---3------3--------3--------3-----3----------3--3--0---------------------------
G|--2-----------------------------------------------------------------0---2--------------
D|---------0-------------------------------------------------0--------------------------
A|------------2---------2-------2--------2--------2------2----------------------------------
E|------------------------------------------------------------------------------------

E|--
B|--
G|--
D|--
A|--
E|--

E|--
B|--
G|--
D|--
A|--
E|--

E|--
B|--
G|--
D|--
A|--
E|--

E|--
B|--
G|--
D|--
A|--
E|--
http://www.guitartabcreator.com
Guitar Tab Creator is intended to store guitar tab created through the tool. It currently does not support in-line text editing. Any text you place in here will be lost. If you need to comment on your tab, please use the "Tab Notes" section located below.