(Simple Plan) Summer Paradise- Ho-Young Jung

(/) Slide Up  (\) Slide Down  (h) Hammer On  (p) Pull Off  (b) Bend (r) Release (v) Vibrato



Standard Tuning
No capo

E|--2-2-2-0-0-0-2-2-2-3-3-3------------------------------------------------------------------
B|--3-3-3-2-2-2-3-3-3-0-0-0--------------------------------------------------------------2---
G|--2-2-2-2-2-2-4-4-4-0-0-0----------------------------------------2----------4-------------
D|--0-0-0-2-2-2-4-4-4-0-0-0-2----0-------2------4--------6----------------------------------
A|--------0-0-0-------2-2-2----------------------------------------------------------------
E|--------------------3-3-3---0------0-------2------2----------2--------2-----------2---------
sunset
E|--------------------------------------------------------------------2---------------------
B|-------4------7-5---------------------------------------------------3--3------------------
-------------------7--5----3---1--0---------4-5-5-7-9--------------------2--2-------
D|-----------------------------------4--3---------------------------------------------
A|-----------------------------------------------------------------------------------------
E|--2---------------------------------------------------------------------------------------


E|------------------------------------
B|------------------------------------
G|----------------------------------------------------------------------
D|------------------------------------
A|------------------------------------
E|------------------------------------

E|------------------------------------
B|------------------------------------
G|------------------------------------
D|----------------------------------------------------------------------
A|------------------------------------
E|------------------------------------

E|------------------------------------
B|------------------------------------
G|------------------------------------
D|------------------------------------
A|------------------------------------
E|------------------------------------

E|------------------------------------
B|------------------------------------
G|------------------------------------
D|------------------------------------
A|------------------------------------
E|------------------------------------

E|--
B|--
G|--
D|--
A|--
E|--

B|--
G|--
D|--
A|--
E|--

E|--
B|--
G|--
D|--
A|--
E|--

E|--
B|--
G|--
D|--
A|--
E|--

E|--
B|--
G|--
D|--
A|--
E|--

E|--
B|--
G|--
D|--
A|--
E|--

E|--
B|--
G|--
D|--
A|--
E|--

E|--
B|--
G|--
D|--
A|--
E|--

B|--
G|--
D|--
A|--
E|--

E|--
B|--
G|--
D|--
A|--
E|--

E|--
B|--
G|--
D|--
A|--
E|--








E|--
B|--
G|--
D|--
A|--
E|--
http://www.guitartabcreator.com
Guitar Tab Creator is intended to store guitar tab created through the tool. It currently does not support in-line text editing. Any text you place in here will be lost. If you need to comment on your tab, please use the "Tab Notes" section located below.