Voices

(/) Slide Up  (\) Slide Down  (h) Hammer On  (p) Pull Off  (b) Bend (r) Release (v) Vibrato


E|----------9----------9--12--11--10--9----------9--------9--7--9--|--
B|------10---------10------------------------10--------9-----7--9--|--
G|--11---------11------------------------11---------9--------7--9--|--
D|-----------------------------------------------------------------|--
A|-----------------------------------------------------------------|--
E|-----------------------------------------------------------------|--



E|----------------------------------------------------------------------------9--9-7-9-9-|-
B|----------------------------------------------------------------------------10-9-7-9-9-|-
G|-11---------11---------------------------------------------------------11\--11-9-7-9-9-|-
D|-11---7-9---11-7-9-----7-----7-----9-----9-----7-----7-----9-----9-7-9-11--------------|-
A|-9----7-9---9--5-7---5-----5-----7-----7-----5-----5-----7-----7---7-9-9---------------|-
E|------5-7------0-0-0-----0-----0-----0-----0-----0-----0-----0-----5-7-----------------|-
http://www.guitartabcreator.com
Guitar Tab Creator is intended to store guitar tab created through the tool. It currently does not support in-line text editing. Any text you place in here will be lost. If you need to comment on your tab, please use the "Tab Notes" section located below.