Table set

(/) Slide Up  (\) Slide Down  (h) Hammer On  (p) Pull Off  (b) Bend (r) Release (v) Vibrato


E|-------------------------------|-------------------------------|-------------------------------|-
B|-------------------------------|-------------------------------|-1-----------------------------|-
G|-------------------------------|-------------------------------|---2-7-5-4-2-4-5-7-4-7-5-4-2-0-|-
D|-------------------------------|-------------------------------|-------------------------------|-
A|-2-----------------------------|-2-----------------------------|-------------------------------|-
E|---3-8-7-5-3-5-7-8-5-8-7-5-3-0-|---3-8-7-5-3-5-7-8-5-8-7-5-3-0-|-------------------------------|-



E|-3-----2-----|-------------|-3----------|-------2-----|-3----------|-
B|-------3-----|-1-----1-----|-------1----|-1-----3-----|------1-----|-
G|-------2-----|-2-----------|------------|-2-----2-----|------2-----|-
D|-------------|-2-----2-----|-------2----|-2-----------|------2-----|-
A|-2-----------|-------3-----|-2-----3----|-------------|-2----------|-
E|-3-----------|-------------|-3----------|-------------|-3----------|-
http://www.guitartabcreator.com
Guitar Tab Creator is intended to store guitar tab created through the tool. It currently does not support in-line text editing. Any text you place in here will be lost. If you need to comment on your tab, please use the "Tab Notes" section located below.