My Baby

(/) Slide Up  (\) Slide Down  (h) Hammer On  (p) Pull Off  (b) Bend (r) Release (v) Vibrato

Rift 1
E|-----------------------------------------------------------------------------|--
B|-----------------------------------------------------------------------------|--
G|-----------------------------------------------------------------------------|--
D|--2--2--2--------2--0--2--0--2--0-----------------2--0--2--0--2--0-----------|--
A|--2--2--2--------------------------2--1--0--------------------------2--1--0--|--
E|--0--0--0--3--3-----------------------------3--3-----------------------------|--



E|--------------------------------------------------------------------|--
B|--------------------------------------------------------------------|--
G|--------------------------------------------------------------------|--
D|--------2--0--2--0--2--0-----------------2--0--2--0--2--0-----------|--
A|--------------------------2--1--0--------------------------2--1--0--|--
E|--3--3-----------------------------3--3-----------------------------|--


Chorus
E|-----------------------------------------------------------------------------------------|--
B|-----------------------------------------------------------------------------------------|--
G|-----------------7--------------------7--------------------------------------------------|--
D|--5--5--5--5--5--7--7--5--5--5--5--5--7--7--5--5--5--5--5--7--2--5--5--5--5--5--7--2--2--|--
A|--5--5--5--5--5--5--7--5--5--5--5--5--5--7--5--5--5--5--5--7--2--5--5--5--5--5--7--2--2--|--
E|--3--3--3--3--3-----5--3--3--3--3--3-----5--3--3--3--3--3--5--0--3--3--3--3--3--5--0--0--|--



E|---------------------------------------------------------------------------------------|-
B|---------------------------------------------------------------------------------------|-
G|---------------------------------------------------------------------------------------|-
D|-----2-0-2-0-0-----------2-0-2-0-2-0-----------2-0-2-0-2-0-----------2-0-2-0-2-0-------|-
A|---------------2-1-0-----------------2-1-0-----------------2-1-0-----------------2-1-0-|-
E|-3-3-----------------3-3-------------------3-3-------------------3-3-------------------|-



E|-----------------------------------------------------------|-
B|-----------------------------------------------------------|-
G|-----------7-------------7---------------------------------|-
D|-5-5-5-5-5-7-7-5-5-5-5-5-7-7-5-5-5-5-5-7-2-5-5-5-5-5-7-2-2-|-
A|-5-5-5-5-5-5-7-5-5-5-5-5-5-7-5-5-5-5-5-7-2-5-5-5-5-5-7-2-2-|-
E|-3-3-3-3-3---5-3-3-3-3-3---5-3-3-3-3-3-5-0-3-3-3-3-3-5-0-0-|-


Solo
E|-----------------------------------------------------------------------------------------------|-
B|-------------------------------8-10-11-10-8-8--------------------------------------------------|-
G|-------------------------9-7-9----------------9-7----------------------------------------------|-
D|-------------------9-8-7--------------------------9-7-------------------------------9----------|-
A|-----------10-7-10------------------------------------10-7--------------------12-10---12-10----|-
E|-7-10-7-10-------------------------------------------------7-10\3/12-10-12-10---------------12-|-


Rift 2 = BIG SHOW ENDING
E|----------------------------------------------------------------|-
B|----------------------------------------------------------------|-
G|-----1-1-1-1-1-1-----------1-1-1-1-1-1-------------7----------1-|-
D|-----2-0-2-0-2-0-----------2-0-2-0-2-0-----------5-7----------2-|-
A|-3-3-------------2-1-0-3-3-------------2-1-0-3-3-5-5----------2-|-
E|-3-3-------------------3-3-------------------3-3-3-0-5-10-7-3-0-|-
http://www.guitartabcreator.com
Guitar Tab Creator is intended to store guitar tab created through the tool. It currently does not support in-line text editing. Any text you place in here will be lost. If you need to comment on your tab, please use the "Tab Notes" section located below.