blank box

(/) Slide Up  (\) Slide Down  (h) Hammer On  (p) Pull Off  (b) Bend (r) Release (v) Vibrato


E|---------------------------------------------------------------------------------------------|-
B|---------------------------------------------------------------------------------------------|-
G|---------------------------------------------------------------------------------------------|-
D|---------------------------------------------------------------------------------------------|-
A|-----------------------------------------7-5-5-7-5-------------------------------------------|-
E|-7-5-3-0-0-0-0-0-0-7-5-3-0-0-0-0-0-0-7-5-----------5-7-7-7-5-3-0-0-0-0-0-0-7-5-3-0-0-0-0-0-0-|-



E|-----------------------------------------------------------------------------------------------|---
B|-----------------------------------------------------------------------------------------------|---
G|-----------------------------------------------------------------------------------------------|---
D|-----------------------------------------------------------------------------------------------|---
A|-----7-5-5-7-5-----------------------------------------------------------------------------5-7-|---
E|-7-5-----------5-7-7-7-5-7-8-8-8-7-5-7-7-7-5-3-5-5-5-3-0-0-0-0-0-0-0-7-5-3-0-0-0-0-0-0-7-5-----|---



E|-------------------------------------------------------------------------------------------------|-
B|-------------------------------------------------------------------------------------------------|-
G|-------------------------------------------------------------------------------------------------|-
D|-------------------------------------------------------------------------------------------------|-
A|-5-7-5-----------------------------------------------7-5-5-7-5-----------------------------------|-
E|-------5-7-7-7-5-3-0-0-0-0-0-0-7-5-3-0-0-0-0-0-0-7-5-----------5-7-7-7-5-7-8-8-8-7-5-7-7-7-5-3-5-|-



E|---------------------------------------------------------------------------
B|---------------------------------------------------------------------------
G|---------------------------------------------------------------7-9-4-------
D|---------------------------------------------------------------7-9-4-8-7-5-
A|-----------------------7-7-7-5-5-7-7-8-3-3-7-7-7-5-5-7-7-8-3-3-5-7-3-8-7-5-
E|-5-5-5-3-0-0-0-0-0-0-0-----------------------------------------------7-5-3-
http://www.guitartabcreator.com
Guitar Tab Creator is intended to store guitar tab created through the tool. It currently does not support in-line text editing. Any text you place in here will be lost. If you need to comment on your tab, please use the "Tab Notes" section located below.