Black tooth grin

(/) Slide Up  (\) Slide Down  (h) Hammer On  (p) Pull Off  (b) Bend (r) Release (v) Vibrato


E|-------------------------------------------------
B|-------------------------------------------------
G|-------------------------------------------------
D|--2----------------------------------------------
A|--2----------------------------------------5--3--
E|--0----0--0--0--0--0--0--0--0--0--0--0--0--3--1--



E|----------------------------------------------------
B|----------------------------------------------------
G|----------------------------------------------------
D|--------9--------9-----9--------9-------------------
A|--------7--------7-----7--------7--7--8--7h8p7------
E|--0--0--0--0--0--0--0--0--0--0--0---------------10--
http://www.guitartabcreator.com
Guitar Tab Creator is intended to store guitar tab created through the tool. It currently does not support in-line text editing. Any text you place in here will be lost. If you need to comment on your tab, please use the "Tab Notes" section located below.