SINGLE

(/) Slide Up  (\) Slide Down  (h) Hammer On  (p) Pull Off  (b) Bend (r) Release (v) Vibrato

E|-----------------------------------------------------------------|-----------------------------
B|-----------------------------------------------------------------|-----------------------------
G|-----------------------------------------------------------------|-----------------------------
D|-----------------------------------------------------------------|-----------------------------
A|--17-----------------15-----------------------17--17--17--17-----|--17---------------15--------
E|------0----1--0--13------0--0--12--12--0--13------------------0--|------0--1--0--13------0-----



E|-------------------------------|-------------------------13--13--13--13--13--13--------
B|-------------------------------|-------------------------17--17--17--17--17--17--------
G|-------------------------------|-------------------------------------------------------
D|-------------------------------|-------------------------------------------------------
A|----------------0--0--0--0--0--|-------------------------------------------------------
E|--0--12--12--0--0--0--0--0--0--|--13--13--13--13--13--0--------------------------0--0--



E|-------------------------------|-------------------------13--13--13--13--13--13--------
B|-------------------------------|-------------------------17--17--17--17--17--17--------
G|-------------------------------|-------------------------------------------------------
D|-------------------------------|-------------------------------------------------------
A|-------------------------------|-------------------------------------------------------
E|--10--10--0--12--0--13--13--0--|--13--13--13--13--13--0--------------------------0--0--



E|-----------------------|-----------------|--------------------------------------------
B|-----------------------|-----------------|--------------------------------------------
G|-----------------------|--10--9---7--14--|--10----10----10--10-------9----------------
D|-----------------------|--12--10--5--12--|--12----------12--12----------10------7/10--
A|-----------6--6--6--6--|--12--10--8--15--|--12----12----12--12--------------10--------
E|--5--5--0--6--6--6--6--|-----------------|------------------------0-------------------



E|-------------------------------------------------------------------------------|--
B|-------------------------------------------------------------------------------|--
G|-------------------------------------------------------------------------------|--
D|-----------------------15--15--15--15--15--14--14--14--14--14------------------|--
A|---------------------------------------------------------------15--15--15--15--|--
E|--0----7----8----0--0----------------------------------------------------------|--



E|---------------------------------------|--
B|---------------------------------------|--
G|---------------------------------------|--
D|------15-----10------------------------|--
A|--------------------10-----------------|--
E|--12------7------8------8--7--0--1--1--|--
http://www.guitartabcreator.com
Guitar Tab Creator is intended to store guitar tab created through the tool. It currently does not support in-line text editing. Any text you place in here will be lost. If you need to comment on your tab, please use the "Tab Notes" section located below.