Here Comes The Sun (Intro)

(/) Slide Up  (\) Slide Down  (h) Hammer On  (p) Pull Off  (b) Bend (r) Release (v) Vibrato
E|-----------2-------0---2-------------------2-------0-----------------------3-------0---------------
B|-------------------------------3-----------------------3-------0-----------------------3-------0---
G|-------2-------2-----------2-----------2-------2---------------------------------------------------
D|---0-------------------------------0-----------------------0-----------0-------0-------------------
A|---------------------------------------------------------------------------------------------------
E|-------------------------------------------------------------------3-----------------------3-------



E|--------------------------
B|--------2-----0--2--------
G|-----------------------2--
D|-----2-----2--------------
A|--0-----------------0-----
E|--------------------------
http://www.guitartabcreator.com
Guitar Tab Creator is intended to store guitar tab created through the tool. It currently does not support in-line text editing. Any text you place in here will be lost. If you need to comment on your tab, please use the "Tab Notes" section located below.