Shred Secret 1 tab #3

(/) Slide Up  (\) Slide Down  (h) Hammer On  (p) Pull Off  (b) Bend (r) Release (v) Vibrato


E|-----------------------------------------------------8--10--12--
B|------------------------------------------8--10--12-------------
G|--------------------------------7--9--10------------------------
D|----------------------7--9--10----------------------------------
A|------------7--8--10--------------------------------------------
E|--7--8--10------------------------------------------------------



E|--13--12--10----------------------------------------------------------
B|--------------13--12--10----------------------------------------------
G|--------------------------12--10--9-----------------------------------
D|-------------------------------------12--10--9------------------------
A|------------------------------------------------12--10--8-------------
E|-----------------------------------------------------------12--10--8--
http://www.guitartabcreator.com
Guitar Tab Creator is intended to store guitar tab created through the tool. It currently does not support in-line text editing. Any text you place in here will be lost. If you need to comment on your tab, please use the "Tab Notes" section located below.