Shred Secret 1 #4

(/) Slide Up  (\) Slide Down  (h) Hammer On  (p) Pull Off  (b) Bend (r) Release (v) Vibrato


E|--------------------------------------------------------------15--17--19--
B|--------------------------------------------------15--17--19--------------
G|--------------------------------------14--16--17--------------------------
D|--------------------------14--16--17--------------------------------------
A|--------------14--15--17--------------------------------------------------
E|--14--15--17--------------------------------------------------------------



E|--20--19--17--------------------------------------------------------------
B|--------------20--19--17--------------------------------------------------
G|--------------------------19--17--16--------------------------------------
D|--------------------------------------19--17--16--------------------------
A|--------------------------------------------------19--17--15--------------
E|--------------------------------------------------------------19--17--15--
http://www.guitartabcreator.com
Guitar Tab Creator is intended to store guitar tab created through the tool. It currently does not support in-line text editing. Any text you place in here will be lost. If you need to comment on your tab, please use the "Tab Notes" section located below.