Run From the Enemy That Knows Your Weakness

(/) Slide Up  (\) Slide Down  (h) Hammer On  (p) Pull Off  (b) Bend (r) Release (v) Vibrato

VERSES

E|-----------------------------------------------
B|-----------------------------------------------
G|-----------------------------------------------
D|--------------5--5-----------------------------
A|-----------------------------------------------
E|--0--0--0--0--------0--0--0--5--3--0--5--8--8--



E|-----------------------------------------------
B|-----------------------------------------------
G|-----------------------------------------------
D|--------------5--5-----------------------------
A|-----------------------------------------------
E|--0--0--0--0--------0--0--0--6--5--3--5--3--1--

BRIDGE

E|--------------------------------------------------------
B|--------------------------------------------------------
G|--------------------------------------------------------
D|--------------------------------------------------------
A|--------------5-----4-----3-----4-----------------------
E|--0--0--0--0-----0-----0-----0-----0--5--3--0--5--7--7--

CHORUS

E|-------------------------------------
B|-------------------------------------
G|-------------------------------------
D|-------------------------------------
A|-------------------------------------
E|--7/8--8--7/8--8-----0--0--3--3------

MIDDLE 8

E|-----------------------------------------
B|-----------------------------------------
G|-----------------------------------------
D|-----------------------------------------
A|-----------------------------------------
E|--0--0--0--0--0--0--0--0--0--0--0--0--0--



E|--------------------------------------------------------------------------------------
B|--------------------------------------------------------------------------------------
G|--------------------------------------------------------------------------------------
D|--------------------3--5--------------------------------------------------------------
A|--------3--5--------------------3--5--------------3--5--------3--5--------------------
E|--0--0--------0--0--------0--0--------3--5--0--0--------0--0--------0--0--0--0--0--0--
http://www.guitartabcreator.com
Guitar Tab Creator is intended to store guitar tab created through the tool. It currently does not support in-line text editing. Any text you place in here will be lost. If you need to comment on your tab, please use the "Tab Notes" section located below.