I get my strength by fighting for the right reasons

(/) Slide Up  (\) Slide Down  (h) Hammer On  (p) Pull Off  (b) Bend (r) Release (v) Vibrato

This song has a load of open E (C#) including all of the verses, all of the bridges, and half of the outro, so no point me tabbing them, you just have to learn the rhythms :D

CHORUS

E|--------------------------------------------------
B|--------------------------------------------------
G|--------------------------------------------------
D|--------------------------------------------------
A|--2--2--2--2--------------------------------------
E|--------------5--5--5--5--0--0--0--0--7--7--7--7--

MIDDLE 8

E|--------------------------------------|----------------------------
B|--------------------------------------|----------------------------
G|--------------------------------------|----------------------------
D|--------------------------------------|----------------------------
A|--------------------------------------|----------------------------
E|--0--0--4--5--0--0--0--0--4--5--5--7--|--0--0--4--5--0--5--4--0--2b

VERSE, BRDIGE, SECOND HALF OF OUTRO (lol)

E|--------------------------------------------------------------------
B|--------------------------------------------------------------------
G|--------------------------------------------------------------------
D|--------------------------------------------------------------------
A|--------------------------------------------------------------------
E|--0--0--0--0--0--0--0--0--0--0--0--0--0--0--0--0--0--0--0--0--0--0--
http://www.guitartabcreator.com
Guitar Tab Creator is intended to store guitar tab created through the tool. It currently does not support in-line text editing. Any text you place in here will be lost. If you need to comment on your tab, please use the "Tab Notes" section located below.