From the Ashes of Dead Nations

(/) Slide Up  (\) Slide Down  (h) Hammer On  (p) Pull Off  (b) Bend (r) Release (v) Vibrato

INTRO & CHORUSES

E|--------------------------------------------------
B|--------------------------------------------------
G|--------------------------------------------------
D|--------------------------------------------------
A|--------------3--3--3--3--------------3--3--3--3--
E|--0--0--0--0--------------0--0--0--0--------------


VERSES

E|----------------------------------------
B|----------------------------------------
G|----------------------------------------
D|----------------------------------------
A|----------------------------------------
E|--0--0--3--5--8--10--0--0--3--5--8--10--

BRIDGES

E|-----------------------------------------------------
B|-----------------------------------------------------
G|-----------------------------------------------------
D|-----------------------------------------------------
A|-----------------------------------------------------
E|--6--0--6--0--1--0--3--0--5--3--1--6--0--6--0--1--0--

QUIET MIDDLE 8

E|-----------------------------------
B|-----------------------------------
G|-----------------------------------
D|-----------------------------------
A|--------3--------3--------3--------
E|--0--3-----0--3-----0--3-----0--0--

LOUD MIDDLE 8

E|--------------------------------------------
B|--------------------------------------------
G|--------------------------------------------
D|--------------------------------------------
A|--3--5--3--5--5--3--5--3--6--6--------------
E|--------------------------------5--5--1--1--



E|----------------------------------------------
B|----------------------------------------------
G|----------------------------------------------
D|----------------------------------------------
A|--3--5--3--5--5--3--5--3--6--6----------------
E|--------------------------------8--8--10--10--
http://www.guitartabcreator.com
Guitar Tab Creator is intended to store guitar tab created through the tool. It currently does not support in-line text editing. Any text you place in here will be lost. If you need to comment on your tab, please use the "Tab Notes" section located below.