All I Know is the Extent of Everything I Don't Know

(/) Slide Up  (\) Slide Down  (h) Hammer On  (p) Pull Off  (b) Bend (r) Release (v) Vibrato

Intro (second bar of intro also played after the first chorus)

E|--------------------------------|--------------------------------
B|--------------------------------|--------------------------------
G|--------------------------------|--------------------------------
D|--------------6-----------------|--------------6-----------------
A|--------------5-----------------|--------------5-----------------
E|--0--0--0--0-----0--0--0--0--0--|--0--0--0--0-----0--0--3--5--3--

Verses

E|--------------------------------------------------------------------
B|--------------------------------------------------------------------
G|--------------------------------------------------------------------
D|--------------------------------------------------------------------
A|--------------------------------------------------------------------
E|--8--5--3--0--0--0--0--3--5--3--0--8--5--3--0--0--0--0--3--5--5--5--

Bridge

E|--------------------------------------|--------------------------------
B|--------------------------------------|--------------------------------
G|--------------------------------------|--------------------------------
D|--------------------------------------|--------------------------------
A|--------------------------------------|--------------------------------
E|--0--0--0--0--0--0--0--0--1--0--1--3--|--0--0--0--0--0--0--0--0--3--3--



E|--------------------------------------|-----------------------------------
B|--------------------------------------|-----------------------------------
G|--------------------------------------|-----------------------------------
D|--------------------------------------|-----------------------------------
A|--------------------------------------|-----------------------------------
E|--0--0--0--0--0--0--0--0--1--0--1--3--|--0--0--0--0--3--3--3--3--3--3--3--

Chorus

E|--------------------------------------------------------------------------------------------
B|--------------------------------------------------------------------------------------------
G|--------------------------------------------------------------------------------------------
D|--------------------------------------------------------------------------------------------
A|--1--1--1--1--3--3--3--3--5-----------------------------3--5--5-----------------------------
E|-----------------------------0--3--5--3--0--0--0--3--5-----------0--3--5--3--0--0--0--5--5--

Middle 8

E|--------------------------------------
B|--------------------------------------
G|--------------------------------------
D|--------------------------------------
A|--------------------------------------
E|--0--0--0--0--0--0--0--0--0--0--0--0--
http://www.guitartabcreator.com
Guitar Tab Creator is intended to store guitar tab created through the tool. It currently does not support in-line text editing. Any text you place in here will be lost. If you need to comment on your tab, please use the "Tab Notes" section located below.